Arabian Dreams Guitar 1

(/) Slide Up  (\) Slide Down  (h) Hammer On  (p) Pull Off  (b) Bend (r) Release (v) Vibrato
E|-----|------------------------------|------|-----------|--------------|-----
B|-----|-----------7--8--7h8p7--------|------|-----------|--------------|-----
G|-----|--9--7--9---------------9--7--|--9v~~~~~9--------|--------------|-----
D|--9--|------------------------------|------|-----9----7|--9h10p9p7h9~~~~~~~~
A|-----|------------------------------|------|-----------|--------------|-----
E|-----|------------------------------|------|-----------|--------------|-----



E|--------------|------------------------------|------------|----------------|--------------|------
B|--------------|-----------7--8--7h8p7--------|------------|----------------|--------------|------
G|--------------|--9--7--9---------------9--7--|--9v~~~~~~~~~~~9--7h9--------|--------------|------
D|~~9--------9--|------------------------------|------------|----------9--7--|--9h10p9p7h9~~~~~9v--
A|--------------|------------------------------|------------|----------------|--------------|------
E|--------------|------------------------------|------------|----------------|--------------|------



E|----------|-----------|------|------|--------------|---------------|------|------|--
B|----------|--------7--|------|------|--------------|---------------|------|------|--
G|----------|-----7-----|--9v~~~~~9v--|--------------|---------------|------|------|--
D|--9----9--|--7--------|------|------|--------------|---------------|------|------|--
A|----------|-----------|------|------|--10------10--|--9h10--9------|--7v~~~~~7v--|--
E|----------|-----------|------|------|--------------|-----------10--|------|------|--



E|----------|---------------|-----------|-------------|-----------|-----|-
B|----------|---------------|-----------|-------------|-----------|-----|-
G|----------|---------------|-----------|-------------|-----------|-----|-
D|--9h10-12~~~12--9h10-12-9-|-10-7h9-10~|~10-7h9-10-7-|-----------|-----|-
A|----------|---------------|-----------|-------------|-11-8-11p8-|-----|-
E|----------|---------------|-----------|-------------|-----------|-12v-|-



E|---------|---------------|-----------|---------------|---------------|---
B|---------|---------------|-----------|---------------|---------------|---
G|---------|---------------|-----------|------------10-|-13-10-13p10-9-|---
D|-9h10-12~~~12--9h10-12-9-|-10-7h9-10~~~10--7h9-10----|---------------|---
A|---------|---------------|-----------|---------------|---------------|---
E|---------|---------------|-----------|---------------|---------------|---



E|---------|---------------|-----------|---------------|------------|----
B|---------|---------------|-----------|------------10-|-10-9-6h9p6-|----
G|-9h10-13~~~13--9h10-13-9-|-10-7h9-10~~~10--7h9-10----|------------|-9v-
D|---------|---------------|-----------|---------------|------------|----
A|---------|---------------|-----------|---------------|------------|----
E|---------|---------------|-----------|---------------|------------|----



E|----------|----------|----------|----------|----------|------------|----------|-
B|----------|----------|----------|----------|----------|------------|----------|-
G|----------|----------|----------|----------|----------|------------|--9h10-13~~~
D|----------|----------|----------|----------|----------|------------|----------|-
A|----------|----------|----------|----------|----------|------------|----------|-
E|-12----12-|-12----12-|-10----10-|-10----10-|-12----12-|-12-12---12-|----------|-
PM PM PM PM PM PM PM


E|--------------|-----------|---------------|--------|-----------------------|------------------|-
B|--------------|-----------|------------10-|-10---9-|-10h12p10-9-10h12p10-9-|------------------|-
G|~13-9-10-13-9-|-10-7-9-10~~~10--7-9-10----|--------|-----------------------|--13-9-10-13-9-10-|-
D|--------------|-----------|---------------|--------|-----------------------|------------------|-
A|--------------|-----------|---------------|--------|-----------------------|------------------|-
E|--------------|-----------|---------------|--------|-----------------------|------------------|-



E|-------------|--------------|-----------------|-------------|--------------|-7------7------|-
B|-------------|-----------10-|-----------------|-------------|-----------10-|---9-10---9-10-|-
G|-13-9-10-7-9-|-10-7-9-10----|-13-9-10-13-9-10-|-13-9-10-7-9-|-10-7-9-10----|---------------|-
D|-------------|--------------|-----------------|-------------|--------------|---------------|-
A|-------------|--------------|-----------------|-------------|--------------|---------------|-
E|-------------|--------------|-----------------|-------------|--------------|---------------|-



E|-7----------|------------8-|-7------7------|-7-----------|------------8-|-
B|---9-10-8-9-|-10----9-10---|---9-10---9-10-|---9-10----9-|-10----9-10---|-
G|------------|----10--------|---------------|--------10---|----10--------|-
D|------------|--------------|---------------|-------------|--------------|-
A|------------|--------------|---------------|-------------|--------------|-
E|------------|--------------|---------------|-------------|--------------|-



E|-7-7-8-8-7-7-8-8-|-7-7-8-8-|-7-7---7~|~7-7-|-7~~~~~~7-
B|-----------------|---------|---------|-----|-5~~~~~~5-
G|-----------------|---------|---------|-----|------|---
D|-----------------|---------|---------|-----|------|---
A|-----------------|---------|---------|-----|------|---
E|-----------------|---------|---------|-----|------|---



E|-------------|-------------|-------------|---------------|-----------|-
B|-------------|-------------|-------------|---------------|-----------|-
G|-------------|-------------|-------------|---------------|-----------|-
D|-9-7p6-7p6---|---------6---|-9-7p6-7p6---|---------6-----|---------6-|-
A|-----------7-|-8-8p7-8---7-|-----------7-|-8-8p7-8---7---|-8-8p7-8---|-
E|-------------|-------------|-------------|-------------7-|-----------|-



E|---|-----|-7-------------|------------------|-7-------------|------------------|-
B|---|-----|---10p9-10p9---|------------9-----|---10p9-10p9---|------------9-----|-
G|---|-----|-------------9-|-10-10p9-10---9---|-------------9-|-10-10p9-10---9---|-
D|---|-----|---------------|----------------9-|---------------|------------------|-
A|-7-|-----|---------------|------------------|---------------|------------------|-
E|---|-----|---------------|------------------|---------------|------------------|-



E|------------------|--------------|------|---|-----------------|------------|-
B|------------9-----|------------9-|------|---|-----------------|------------|-
G|-10-10p9-10---9---|-10-10p9-10---|-9----|---|-----------------|------------|-
D|----------------9-|--------------|------|---|-------------6h7-|-9-9h10-9---|-
A|------------------|--------------|------|---|-7h8-7p5-7h8-----|------------|-
E|------------------|--------------|------|---|-----------------|------------|-



E|-----------------|----------|--------------------|-7-7h8-7---|-7-7h8-7---|-
B|-----------------|----------|---------------9h10-|-----------|---------9-|-
G|-----------------|----------|-9h10-9p7-9h10------|-----------|-----------|-
D|-------------6h7-|-9--7-6---|--------------------|-----------|-----------|-
A|-7h8-7p5-7h8-----|--------7-|--------------------|-----------|-----------|-
E|-----------------|----------|--------------------|-----------|-----------|-



E|-----------|------|-------|--|-------|-------|------|--------|-
B|-10p9----9-|------|-------|--|-------|-------|------|--------|-
G|------10---|-9v~~~~~9-----|--|-9-9-9-|-9-9-9-|-7----|-7---10-|-
D|-----------|------|-------|--|-------|-------|------|--------|-
A|-----------|------|-------|--|-------|-------|------|--------|-
E|-----------|------|-------|--|-------|-------|------|--------|-



E|----------------------|----------------|--------|-------|----------------|--------------|-
B|----------------------|----------------|--------|-----6-|----------------|--------------|-
G|-9----9-9--9--9--9--9-|-9---9-9--9---9-|-7--7-7-|-7-7-7-|-9---9----9-9---|-9---9---9-10-|-
D|----------------------|----------------|--------|-------|---9----9-----9-|---9---9------|-
A|----------------------|----------------|--------|-------|----------------|--------------|-
E|----------------------|----------------|--------|-------|----------------|--------------|-



E|----------------|--------------|----------------|---------------|---------------|--------------|-
B|----------------|--------------|----------------|---------------|---------------|--------------|-
G|-9---9----9-9---|-9--9-----9-7-|-9--9-----9-9---|-9--9----9-10--|9-9------9-9---|-9--9----9-7--|-
D|---9----9-----9-|---9----9-----|---9----9-----9-|---9----9------|-9-----9-----9-|---9----9-----|-
A|----------------|--------------|----------------|---------------|---------------|--------------|-
E|----------------|--------------|----------------|---------------|---------------|--------------|-



E|---------------------|---------------------|--------------|---------|-------|------|-
B|---------------------|---------------------|--------------|---------|-------|------|-
G|-9-99-9-9999-9-------|-9-99-9-9999-9-------|-9--9---9--9--|-9--9----|-------|------|-
D|---------------------|---------------------|-12-12--12-12-|-12-12---|-------|------|-
A|---------------------|---------------------|--------------|-------7-|-7-----|-7----|-
E|---------------------|---------------------|--------------|---------|-------|------|-
http://www.guitartabcreator.com
Guitar Tab Creator is intended to store guitar tab created through the tool. It currently does not support in-line text editing. Any text you place in here will be lost. If you need to comment on your tab, please use the "Tab Notes" section located below.