We All Will Fall

(/) Slide Up  (\) Slide Down  (h) Hammer On  (p) Pull Off  (b) Bend (r) Release (v) Vibrato


E|--------------------------------------------------------
B|--------------------------------------------------------
G|--2--2--2--2--2-----------------------------------------
D|--2--2--2--2--2--2--2--2--2-----------------4--4--4--4--
A|--0--0--0--0--0--2--2--2--2--2--2--2--2--2--4--4--4--4--
E|-----------------0--0--0--0--3--3--3--3--3--2--2--2--2--



E|--------------------------------------------------
B|--------------------------------------------------
G|--------------------------7--7--7--7--7--6--6--6--
D|--5--5--5--5--5--6--6--6--7--7--7--7--7--6--6--6--
A|--5--5--5--5--5--6--6--6--5--5--5--5--5--4--4--4--
E|--3--3--3--3--3--4--4--4--------------------------



E|-----------------------------------------
B|-----------------------------------------
G|-----------------------------------------
D|-----------------------------------------
A|-----------------5--------------5--------
E|--3--0--3--0--3-----3--3--0--3-----6--5--



E|-------------------------------------------------------------------------------------------------
B|-------------------------------------------------------------------------------------------------
G|-------------------------------------------------------------------------------------------------
D|-------------------------------------------------------------------------------------------------
A|------------------------------------------------------------7--8---------------7--8--------------
E|--0--0--0--0--0--0--0--0--0--0--0--0--0--0--0--0--8--10--0--------0--8--10--0--------0--0--0--0--



E|-------------------------------------------------------------------------------------------------
B|-------------------------------------------------------------------------------------------------
G|-------------------------------------------------------------------------------------------------
D|------------------------------------------------------------7--9---------------7--9--------------
A|--------------------------------------------------8--10--------------8--10-----------------------
E|--0--0--0--0--0--0--0--0--0--0--0--0--0--0--0--0---------0--------0---------0--------0--0--0--0--



E|--------------------------------------------------
B|--------------------------------------------------
G|--------------------------------------------------
D|-----------------------------4--4--4--4--4--4--4--
A|--2--2--2--2--2--2--2--2--2--4--4--4--4--4--4--4--
E|--3--3--3--3--3--3--3--3--3--2--2--2--2--2--2--2--
http://www.guitartabcreator.com
Guitar Tab Creator is intended to store guitar tab created through the tool. It currently does not support in-line text editing. Any text you place in here will be lost. If you need to comment on your tab, please use the "Tab Notes" section located below.