Super X

(/) Slide Up  (\) Slide Down  (h) Hammer On  (p) Pull Off  (b) Bend (r) Release (v) Vibrato


E|------------------------------------------------------
B|------------------------------------------------------
G|------------------------------------------------------
D|--7--7--7--7--7--7--7--7--7--10--10--10--10--6--6--6--
A|--7--7--7--7--7--7--7--7--7--10--10--10--10--6--6--6--
E|--5--5--5--5--5--5--5--5--5--8---8---8---8---4--4--4--



E|--------------------------------------------------
B|--------------------------------------------------
G|--------------------------------------------------
D|--7--7--7--7--7--7--7--7--7--4--4--4--4--4--4--4--
A|--7--7--7--7--7--7--7--7--7--4--4--4--4--4--4--4--
E|--5--5--5--5--5--5--5--5--5--2--2--2--2--2--2--2--



E|--------------------------
B|--------------------------
G|--------5--------------5--
D|-----6-----4-----3--4-----
A|--------------------------
E|--5-----------2-----------



E|--------------------------------------
B|--------------------------------------
G|--------------------------------------
D|--7--7--7--7--7--7--7--7--4--4--4--4--
A|--7--7--7--7--7--7--7--7--4--4--4--4--
E|--5--5--5--5--5--5--5--5--2--2--2--2--



E|---------------------------------------------------------------
B|---------------------------------------------------------------
G|----------14------12---------------------11------9-------------
D|------13------13------13--12---------10------10-----10--9------
A|--12--------------------------13--9------------------------10--
E|---------------------------------------------------------------



E|--------------------------------------------------
B|--------------------------------------------------
G|--------------------------------------------------
D|--------7-----5-----------------4-----2-----------
A|-----6-----6-----6--5--------3-----3-----3--2-----
E|--5--------------------6--2--------------------3--
http://www.guitartabcreator.com
Guitar Tab Creator is intended to store guitar tab created through the tool. It currently does not support in-line text editing. Any text you place in here will be lost. If you need to comment on your tab, please use the "Tab Notes" section located below.