The Shape of Things to Come

(/) Slide Up  (\) Slide Down  (h) Hammer On  (p) Pull Off  (b) Bend (r) Release (v) Vibrato


E|------------------------------------------------------------------------------
B|------------------------------------------------------------------------------
G|------------------------------------------------------------------------------
D|------------10------------10----------------------10------------10------------
A|-----10------------10------------10--------10------------10------------10-----
E|--0------0------0------0------0------0--0------0------0------0------0------0--



E|--------------------------------
B|--------------------------------
G|--------------------------------
D|--------------------------------
A|-----9-----9-----9-----9-----9--
E|--0-----0-----0-----0-----0-----



E|------------------------------------------------------------
B|------------------------------------------------------------
G|------------------------------------------------------------
D|----------9---------------9-------------11-----------11-----
A|--10--10--10--10--10--10--10--10--9--9--9---9--9--9--9---9--
E|------------------------------------------------------------



E|--------------------------------------------
B|--------------------------------------------
G|--------------------------------------------
D|------9---------------------11--11--11--11--
A|--10-----10--9--7--9--7--9--9---9---9---9---
E|--------------------------------------------



E|------------------------------
B|------------------------------
G|------------------------------
D|------------------------------
A|------9---------11-----11-----
E|--10-----10--9------9------9--



E|---------------------------------
B|---------------------------------
G|---------------------------------
D|--11--9--10--7--11--9--10--7-----
A|----------------11--9--10--7-----
E|----------------9---7--8---5-----



E|--------------------------------------------------------------------------------------------------
B|--------------------------------------------------------------------------------------------------
G|--------------------------------------------------------------------------------------------------
D|--7--7--7--7--7--7--7--7--7--7--8--7--5-----------5--5--5--5--5--5--5--5--5--5--6--5--3-----------
A|--7--7--7--7--7--7--7--7--7--------------7--6--5--5--5--5--5--5--5--5--5--5--------------5--4--3--
E|--5--5--5--5--5--5--5--5--5-----------------------3--3--3--3--3--3--3--3--3-----------------------
http://www.guitartabcreator.com
Guitar Tab Creator is intended to store guitar tab created through the tool. It currently does not support in-line text editing. Any text you place in here will be lost. If you need to comment on your tab, please use the "Tab Notes" section located below.