Thousand Years- jung arrangement- Capo 3

(/) Slide Up  (\) Slide Down  (h) Hammer On  (p) Pull Off  (b) Bend (r) Release (v) Vibrato


E|--10--|--10--|--10--|--8---|--|--10--|--10--|--10--|--8---|--
B|--11--|--11--|--11--|------|--|--11--|--11--|--11--|--10--|--
G|------|------|------|------|--|------|------|------|------|--
D|------|------|------|------|--|------|------|------|------|--
A|------|------|------|--12--|--|------|------|------|------|--
E|--13--|------|------|------|--|--0---|------|------|------|--



E|--11--|--11--|--11--|--10--|--|--10--|----------|--8--|--6-----5--------|--
B|--8---|--8---|--8---|------|--|--11--|--11------|--6--|--6-----------5--|--
G|--8---|------|------|------|--|--10--|------10--|--5--|-----------------|--
D|------|------|------|------|--|--0---|----------|--0--|-----0-----0-----|--
A|--0---|------|------|------|--|------|----------|-----|-----------------|--
E|------|------|------|------|--|------|----------|-----|-----------------|--



E|--------------|--------------|--------------|--------------|--
B|--------6-----|--------6-----|--------6-----|--0-----------|--
G|--0-----------|--0-----------|--0-----------|-----5-----0--|--
D|-----5-----5--|-----5-----5--|-----5-----5--|--------0-----|--
A|--6-----------|--6-----------|--6-----------|--6-----------|--
E|--------------|--------------|--------------|--------------|--



E|--------------|--------------|--------------|-----4--------|--
B|--------6-----|--------6-----|--------6-----|--6-----------|--
G|--0-----------|--0-----------|--0-----------|-----------5--|--
D|-----0-----0--|-----0-----0--|-----0-----0--|--------0-----|--
A|--5-----------|--5-----------|--5-----------|--5-----------|--
E|--------------|--------------|--------------|--------------|--



E|-----------------|--6--------|-----------|-----------------
B|-----------------|-----4-----|--------0--|-----------------
G|--0-----0--------|--------5--|--5--------|--------0--5-----
D|-----5--------5--|-----------|--0--0-----|--7-----------0--
A|-----------5-----|-----------|-----------|-----------------
E|--0--------------|--0--------|-----------|--5--5-----------
http://www.guitartabcreator.com
Guitar Tab Creator is intended to store guitar tab created through the tool. It currently does not support in-line text editing. Any text you place in here will be lost. If you need to comment on your tab, please use the "Tab Notes" section located below.