through the fire

(/) Slide Up  (\) Slide Down  (h) Hammer On  (p) Pull Off  (b) Bend (r) Release (v) Vibrato

E|--------------|--------------|----------|----------|-----1/2--3--|-------------------|--
B|--3--------0--|--1--0--------|--0-------|--3--0----|--3-------3--|--0h1--0-----------|--
G|-----0--2-----|--------2--0--|--0--0----|--2-------|-------------|----------------0--|--
D|--------------|--------------|----------|--0-------|-------------|----------2--4-----|--
A|--------------|--2-----------|----------|----------|----------3--|--2----------------|--
E|--3-----------|--------------|--0-------|----------|--3----------|-------------------|--



E|----------------|--------2--|--
B|--1----0--------|-----3-----|--
G|----------2--0--|--2--------|--
D|----------------|--0--------|--
A|--0-------------|-----------|--
E|----------------|-----------|--



E|--
B|--
G|--
D|--
A|--
E|--
http://www.guitartabcreator.com
Guitar Tab Creator is intended to store guitar tab created through the tool. It currently does not support in-line text editing. Any text you place in here will be lost. If you need to comment on your tab, please use the "Tab Notes" section located below.