Taylor - Jack Johnson

(/) Slide Up  (\) Slide Down  (h) Hammer On  (p) Pull Off  (b) Bend (r) Release (v) Vibrato

E|-------|-----------------------|------------------|---------------------|-------
B|-------|-----------------------|------------------|---------------------|-------
G|-------|-----------------------|------------------|---------------------|-------
D|-------|-----------------------|------------------|-1h3p1---1p0---------|-------
A|-0-1h3-|-1h3p1---1-1-----------|-------1-2-2h3-3v-|-------3-----3p0-----|-----1-
E|-------|-------3-----3-1-0-1-1-|-1h2h3------------|-----------------1-1-|-1h3---



E|---------------------|-------------------------|---1------0---0-0-----------------
B|---------------------|-------------------------|---4------1---1-3-3/5-5-3-3-1-1---
G|---------------------|-------------------------|---2------0---0-0-0-0-0-0-0-0-0---
D|---------------------|-3-3/5-5-3p0-2p0---------|---3------2---2-2-----------------
A|-----1-----1-----1-3-|-----------------0-0-----|---1------3---3-3-----------------
E|-1h3---1h3---1h3-----|---------------------1-1-|-1-1------0---0-0-----------------



E|----------0--
B|----------1--
G|--2p0-----2--
D|-------0--3--
A|----------3--
E|----------0--
http://www.guitartabcreator.com
Guitar Tab Creator is intended to store guitar tab created through the tool. It currently does not support in-line text editing. Any text you place in here will be lost. If you need to comment on your tab, please use the "Tab Notes" section located below.