Infinity Hook

(/) Slide Up  (\) Slide Down  (h) Hammer On  (p) Pull Off  (b) Bend (r) Release (v) Vibrato


E|---------5---------------5---------------5---------------5-------
B|-----0-----0---------0-----0---------0-----0---------0-----0-----
G|---6---6-----6-----6---6-----6-----6---6-----6-----6---6-----6---
D|-0-------------0-0-------------0-7-------------7-7-------------7-
A|-----------------------------------------------------------------
E|-----------------------------------------------------------------



E|---------4---------------4---------------7---------------7-----
B|-----0-----0---------0-----0---------0-----0---------0-------0-
G|---6---6-----6-----6---6-----6-----6---6-----6-----6---6-------
D|-6-------------6-6-------------6-4-------------4-4-------------
A|---------------------------------------------------------------
E|---------------------------------------------------------------
http://www.guitartabcreator.com
Guitar Tab Creator is intended to store guitar tab created through the tool. It currently does not support in-line text editing. Any text you place in here will be lost. If you need to comment on your tab, please use the "Tab Notes" section located below.