licks a type GMA13

(/) Slide Up  (\) Slide Down  (h) Hammer On  (p) Pull Off  (b) Bend (r) Release (v) Vibrato

Stave 1:

E|--12--14bb15r14--12--10--10/12--
B|--------------------------------
G|--------------------------------
D|--------------------------------
A|--------------------------------
E|--------------------------------

Stave 2:

E|------------------------10------
B|--------------------12------12--
G|--9--11--11/12--11--------------
D|--------------------------------
A|--------------------------------
E|--------------------------------

Stave 3:

E|------------------------
B|--------------------12--
G|--9b11r9--------12------
D|----------9/12----------
A|------------------------
E|------------------------

Stave 4:

E|----------------------------
B|----------------------------
G|-------------11--9--11/12v--
D|------9--12-----------------
A|--10------------------------
E|----------------------------

Stave 5:

E|--12b14r12--10---------------------------
B|----------------12---------12------------
G|--------------------11/12----------------
D|-------------------------------9/12------
A|-------------------------------------10--
E|-----------------------------------------

Stave 6:

E|--
B|--
G|--
D|--
A|--
E|--

http://www.guitartabcreator.com
Guitar Tab Creator is intended to store guitar tab created through the tool. It currently does not support in-line text editing. Any text you place in here will be lost. If you need to comment on your tab, please use the "Tab Notes" section located below.