licks A Type GMA11

(/) Slide Up  (\) Slide Down  (h) Hammer On  (p) Pull Off  (b) Bend (r) Release (v) Vibrato

Stave 1:

E|--14------15--10---------
B|------13----------11/12--
G|-------------------------
D|-------------------------
A|-------------------------
E|-------------------------

Stave 2:

E|--14/15---------10------
B|---------13\12----------
G|--------------------12--
D|------------------------
A|------------------------
E|------------------------

Stave 3:

E|----------------------10v--14/15--
B|------------------12--------------
G|------11------12------------------
D|--10------10----------------------
A|----------------------------------
E|----------------------------------

Stave 4:

E|-------------------------
B|-------------------------
G|------11-----------------
D|--12------12--9h12-------
A|--------------------10v--
E|-------------------------

Stave 5:

E|--------------14/15--10--
B|----------12-------------
G|------12-----------------
D|--10---------------------
A|-------------------------
E|-------------------------

Stave 6:

E|------10---------------
B|--13------13--12-------
G|------------------12v--
D|-----------------------
A|-----------------------
E|-----------------------

Stave 7:

E|--------------------------------
B|--------------------------------
G|---------11--11h12--------------
D|--9--12-------------10--12------
A|----------------------------10--
E|--------------------------------

Stave 8:

E|-------------------------------
B|-------------------------------
G|--11---------------------------
D|------12--9--9--10--9--10------
A|---------------------------10--
E|-------------------------------

Stave 9:

E|-----------------10--13b15--
B|---------12--13-------------
G|--11/12---------------------
D|----------------------------
A|----------------------------
E|----------------------------

Stave 10:

E|--
B|--
G|--
D|--
A|--
E|--

http://www.guitartabcreator.com
Guitar Tab Creator is intended to store guitar tab created through the tool. It currently does not support in-line text editing. Any text you place in here will be lost. If you need to comment on your tab, please use the "Tab Notes" section located below.