licks a type g9

(/) Slide Up  (\) Slide Down  (h) Hammer On  (p) Pull Off  (b) Bend (r) Release (v) Vibrato

Stave 1:

E|--15b17r15--13--10/13\10------------------------
B|--------------------------10/12\10--------------
G|------------------------------------10--10--12--
D|------------------------------------------------
A|------------------------------------------------
E|------------------------------------------------

Stave 2:

E|------------------10--15/17\15--
B|--12------10--12----------------
G|------12------------------------
D|--------------------------------
A|--------------------------------
E|--------------------------------

Stave 3:

E|--13--10------10------10----------
B|----------12------12--------------
G|--------------------------10/12v--
D|----------------------------------
A|----------------------------------
E|----------------------------------

Stave 4:

E|------------------------10--15--
B|---------12---------12----------
G|--10/12------10/12--------------
D|--------------------------------
A|--------------------------------
E|--------------------------------

Stave 5:

E|-----------------------------
B|--12------10-----------------
G|------12------10------10h12--
D|------------------12---------
A|-----------------------------
E|-----------------------------

Stave 6:

E|-----------------10--13--10--13b15--
B|------12--10h12---------------------
G|--12--------------------------------
D|------------------------------------
A|------------------------------------
E|------------------------------------

Stave 7:

E|---------------------------------------
B|-------------------------10b12r10------
G|-------------10--10h12v------------12--
D|------9--12----------------------------
A|--10-----------------------------------
E|---------------------------------------

Stave 8:

E|--
B|--
G|--
D|--
A|--
E|--

http://www.guitartabcreator.com
Guitar Tab Creator is intended to store guitar tab created through the tool. It currently does not support in-line text editing. Any text you place in here will be lost. If you need to comment on your tab, please use the "Tab Notes" section located below.