licks a type g13

(/) Slide Up  (\) Slide Down  (h) Hammer On  (p) Pull Off  (b) Bend (r) Release (v) Vibrato

Stave 1:

E|--13b15r13--12--10--10--12--10--12h13--12--10--12--10--13/15--
B|--------------------------------------------------------------
G|--------------------------------------------------------------
D|--------------------------------------------------------------
A|--------------------------------------------------------------
E|--------------------------------------------------------------

Stave 2:

E|-------------------10--13b15r13--12--10--
B|-----------12----------------------------
G|--9h10/12------12------------------------
D|-----------------------------------------
A|-----------------------------------------
E|-----------------------------------------

Stave 3:

E|--12b13r12--10-----------------------------
B|----------------12-------------------------
G|--------------------12--10--9h10--9h10/12--
D|-------------------------------------------
A|-------------------------------------------
E|-------------------------------------------

Stave 4:

E|--12----------13b15--
B|----------12---------
G|------12-------------
D|---------------------
A|---------------------
E|---------------------

Stave 5:

E|--------------------------------------------
B|--------------------------------------------
G|--9--10--9--10--10/12-----------------------
D|-----------------------12--9--12--9--12--9--
A|--------------------------------------------
E|--------------------------------------------

http://www.guitartabcreator.com
Guitar Tab Creator is intended to store guitar tab created through the tool. It currently does not support in-line text editing. Any text you place in here will be lost. If you need to comment on your tab, please use the "Tab Notes" section located below.