licks a type g11

(/) Slide Up  (\) Slide Down  (h) Hammer On  (p) Pull Off  (b) Bend (r) Release (v) Vibrato

Stave 1:

E|--13b15r13--12--10--12h13--12--10--12--10--13/15--
B|--------------------------------------------------
G|--------------------------------------------------
D|--------------------------------------------------
A|--------------------------------------------------
E|--------------------------------------------------

Stave 2:

E|--13b15r13p12-----------------10--
B|---------------13--12--12h13------
G|----------------------------------
D|----------------------------------
A|----------------------------------
E|----------------------------------

Stave 3:

E|-----------------10--13b15--
B|---------12--13-------------
G|--11/12---------------------
D|----------------------------
A|----------------------------
E|----------------------------

Stave 4:

E|-----------------10--13b15--
B|---------12--13-------------
G|--10/12---------------------
D|----------------------------
A|----------------------------
E|----------------------------

Stave 5:

E|--13------15------13------10--------------------------
B|------13------13------13------12--13--13--12------12--
G|----------------------------------------------12------
D|------------------------------------------------------
A|------------------------------------------------------
E|------------------------------------------------------

Stave 6:

E|------------------10-------------
B|----------12--13------13--12-----
G|--10--12-------------------------
D|---------------------------------
A|---------------------------------
E|---------------------------------

Stave 7:

E|--------------------------------
B|------------------------12------
G|--------10------10--12------12--
D|--9/12------12------------------
A|--------------------------------
E|--------------------------------

Stave 8:

E|--------------------------
B|--13--12------------------
G|----------12--10--12------
D|----------------------12--
A|--------------------------
E|--------------------------

Stave 9:

E|-------------------------------
B|-------------------------------
G|--------10-------------10h12v--
D|--9/12------12--10h12----------
A|-------------------------------
E|-------------------------------

http://www.guitartabcreator.com
Guitar Tab Creator is intended to store guitar tab created through the tool. It currently does not support in-line text editing. Any text you place in here will be lost. If you need to comment on your tab, please use the "Tab Notes" section located below.