licks a type g phrygian

(/) Slide Up  (\) Slide Down  (h) Hammer On  (p) Pull Off  (b) Bend (r) Release (v) Vibrato

Stave 1:

E|--10--11--11b13r11--10----------------
B|------------------------11/13---------
G|-------------------------------12p10--
D|--------------------------------------
A|--------------------------------------
E|--------------------------------------

Stave 2:

E|----------10------10--11h13--------
B|------11------13-------------------
G|--12-------------------------------
D|-----------------------------------
A|-----------------------------------
E|-----------------------------------

Stave 3:

E|-----------------------------------------10--
B|-------------------------------------13------
G|--10b12r10--------------------10h12----------
D|------------12---------10h12-----------------
A|----------------10h12------------------------
E|---------------------------------------------

Stave 4:

E|--10------------------------------
B|------13--11-------------11-------
G|--------------12--10h12------12v--
D|----------------------------------
A|----------------------------------
E|----------------------------------

Stave 5:

E|--
B|--
G|--
D|--
A|--
E|--

http://www.guitartabcreator.com
Guitar Tab Creator is intended to store guitar tab created through the tool. It currently does not support in-line text editing. Any text you place in here will be lost. If you need to comment on your tab, please use the "Tab Notes" section located below.