licks a type g dorian

(/) Slide Up  (\) Slide Down  (h) Hammer On  (p) Pull Off  (b) Bend (r) Release (v) Vibrato

Stave 1:

E|--10--12--10--12h13b15--
B|------------------------
G|------------------------
D|------------------------
A|------------------------
E|------------------------

Stave 2:

E|-----------------------
B|-----------------------
G|-----------------------
D|-----------------------
A|-----------------------
E|-----------------------

Stave 3:

E|--------------------10--13b15--
B|--10--11b13r11--10-------------
G|-------------------------------
D|-------------------------------
A|-------------------------------
E|-------------------------------

Stave 4:

E|-----------------------------------------
B|--10--11b13r11--10--------------11-------
G|--------------------10--10--12------12v--
D|-----------------------------------------
A|-----------------------------------------
E|-----------------------------------------

Stave 5:

E|--------------------------10------13b15v--
B|----------11------11--13------13----------
G|--10--12------12--------------------------
D|------------------------------------------
A|------------------------------------------
E|------------------------------------------

Stave 6:

E|-----------------------
B|--------11-------------
G|--9/10------10--10/12--
D|-----------------------
A|-----------------------
E|-----------------------

Stave 7:

E|--
B|--
G|--
D|--
A|--
E|--

Stave 8:

E|-----------------------10--13b15--
B|--------11---------11-------------
G|--9h10------10/12-----------------
D|----------------------------------
A|----------------------------------
E|----------------------------------

Stave 9:

E|----------------------10--10/12--12/13v--
B|--11--10--11--13-------------------------
G|------------------10---------------------
D|-----------------------------------------
A|-----------------------------------------
E|-----------------------------------------

Stave 10:

E|-----------------------
B|--------10--11--11b13--
G|--9/10-----------------
D|-----------------------
A|-----------------------
E|-----------------------

Stave 11:

E|--------------------12------
B|---------11--11/13------13--
G|------9---------------------
D|--10------------------------
A|----------------------------
E|----------------------------

Stave 12:

E|--------------------------------
B|--------------------------------
G|------------------10--12--10\9--
D|----------10--12----------------
A|--10--12------------------------
E|--------------------------------

Stave 13:

E|--------------10--13--10--
B|------11------------------
G|--12------12--------------
D|--------------------------
A|--------------------------
E|--------------------------

Stave 14:

E|----------------------------------
B|----------------------------------
G|--10p9-----------------10--10h12--
D|--------10/12---------------------
A|---------------13--10-------------
E|----------------------------------

Stave 15:

E|--10----------------------------------10--
B|------11----------------------------------
G|----------12--10\9---------10--10h12------
D|--------------------10/12-----------------
A|------------------------------------------
E|------------------------------------------

Stave 16:

E|--
B|--
G|--
D|--
A|--
E|--

http://www.guitartabcreator.com
Guitar Tab Creator is intended to store guitar tab created through the tool. It currently does not support in-line text editing. Any text you place in here will be lost. If you need to comment on your tab, please use the "Tab Notes" section located below.