licks a type g aeolian

(/) Slide Up  (\) Slide Down  (h) Hammer On  (p) Pull Off  (b) Bend (r) Release (v) Vibrato

Stave 1:

E|--13b15r13p11--11\10--10--11--11b13--
B|-------------------------------------
G|-------------------------------------
D|-------------------------------------
A|-------------------------------------
E|-------------------------------------

Stave 2:

E|--13b15r13--11--10---------------------------
B|--------------------10--11b13r11-------------
G|----------------------------------12--10/12--
D|---------------------------------------------
A|---------------------------------------------
E|---------------------------------------------

Stave 3:

E|--------------10--11b13r11------
B|----------11----------------11--
G|--10--12------------------------
D|--------------------------------
A|--------------------------------
E|--------------------------------

Stave 4:

E|--10--11--13--11--10------------------
B|----------------------11------11------
G|--------------------------12------12--
D|--------------------------------------
A|--------------------------------------
E|--------------------------------------

Stave 5:

E|--10------------------------------
B|------11--------------------------
G|----------12--10------------------
D|------------------10--12----------
A|--------------------------13--10--
E|----------------------------------

Stave 6:

E|------------------------------------------
B|----------------------------------11------
G|----------------------10--10--12------12--
D|--------------10--12----------------------
A|--10--12--13------------------------------
E|------------------------------------------

Stave 7:

E|--------------------------
B|--------------------------
G|--------------12--12--10--
D|----------12--------------
A|--13--10------------------
E|--------------------------

Stave 8:

E|--
B|--
G|--
D|--
A|--
E|--

http://www.guitartabcreator.com
Guitar Tab Creator is intended to store guitar tab created through the tool. It currently does not support in-line text editing. Any text you place in here will be lost. If you need to comment on your tab, please use the "Tab Notes" section located below.