Arpeggio - A Type G Ma9

(/) Slide Up  (\) Slide Down  (h) Hammer On  (p) Pull Off  (b) Bend (r) Release (v) Vibrato

Stave 1:

E|-----------------------------10--14--17--15--
B|-----------------10------12------------------
G|-------------11------12----------------------
D|------9--12----------------------------------
A|--10-----------------------------------------
E|---------------------------------------------

Stave 2:

E|--15b17r15--14--10---------10------
B|--------------------10/12----------
G|-------------------------------12--
D|-----------------------------------
A|-----------------------------------
E|-----------------------------------

Stave 3:

E|---------10-----------------
B|--10/12---------------------
G|-------------12--11--11/12--
D|----------------------------
A|----------------------------
E|----------------------------

Stave 4:

E|--17--14h15p14---------
B|----------------10/12--
G|-----------------------
D|-----------------------
A|-----------------------
E|-----------------------

Stave 5:

E|-------------10--15--14/17--
B|---------10-----------------
G|--12b14---------------------
D|----------------------------
A|----------------------------
E|----------------------------

Stave 6:

E|---------------------------
B|--10h12p10-----------------
G|------------12--11/12------
D|---------------------------
A|-----------------------10--
E|---------------------------

Stave 7:

E|--17b19p15--14---------
B|----------------10/12--
G|-----------------------
D|-----------------------
A|-----------------------
E|-----------------------

Stave 8:

E|--
B|--
G|--
D|--
A|--
E|--

http://www.guitartabcreator.com
Guitar Tab Creator is intended to store guitar tab created through the tool. It currently does not support in-line text editing. Any text you place in here will be lost. If you need to comment on your tab, please use the "Tab Notes" section located below.