Arpeggio - A Type G Ma7

(/) Slide Up  (\) Slide Down  (h) Hammer On  (p) Pull Off  (b) Bend (r) Release (v) Vibrato

Stave 1:

E|-------------------------10--14--15--
B|---------------------12--------------
G|-------------11--12------------------
D|------9--12--------------------------
A|--10---------------------------------
E|-------------------------------------

Stave 2:

E|---------10--14--14b15--
B|-----12-----------------
G|------------------------
D|------------------------
A|------------------------
E|------------------------

Stave 3:

E|-------------10--14p10--
B|---------12-------------
G|--11/12-----------------
D|------------------------
A|------------------------
E|------------------------

Stave 4:

E|----------------------------
B|---------12-----------------
G|--11h12------12--11h12------
D|----------------------------
A|------------------------10--
E|----------------------------

Stave 5:

E|---------10------14------10--
B|-------------12------12------
G|--11/12----------------------
D|-----------------------------
A|-----------------------------
E|-----------------------------

Stave 6:

E|-----------------------------
B|-----------------------------
G|-------------11--------------
D|------9--12------12--9/12\9--
A|--10-------------------------
E|-----------------------------

Stave 7:

E|--
B|--
G|--
D|--
A|--
E|--

http://www.guitartabcreator.com
Guitar Tab Creator is intended to store guitar tab created through the tool. It currently does not support in-line text editing. Any text you place in here will be lost. If you need to comment on your tab, please use the "Tab Notes" section located below.