Arpeggio - A Type G Ma11

(/) Slide Up  (\) Slide Down  (h) Hammer On  (p) Pull Off  (b) Bend (r) Release (v) Vibrato

Stave 1:

E|-----------------------------10--14------15--
B|-------------------------12----------13------
G|-------------11------12----------------------
D|------9--12------10--------------------------
A|--10-----------------------------------------
E|---------------------------------------------

Stave 2:

E|------10--14b15--
B|--13-------------
G|-----------------
D|-----------------
A|-----------------
E|-----------------

Stave 3:

E|------10------14--15--
B|--12------13----------
G|----------------------
D|----------------------
A|----------------------
E|----------------------

Stave 4:

E|----------------------------------15--
B|--------------------13b15r13--12------
G|--------------------------------------
D|--------------------------------------
A|--------------------------------------
E|--------------------------------------

Stave 5:

E|----------------------------------
B|--13b15r13--12----------------12--
G|----------------12--------12------
D|--------------------9/12----------
A|----------------------------------
E|----------------------------------

Stave 6:

E|--
B|--
G|--
D|--
A|--
E|--

Stave 7:

E|--
B|--
G|--
D|--
A|--
E|--

http://www.guitartabcreator.com
Guitar Tab Creator is intended to store guitar tab created through the tool. It currently does not support in-line text editing. Any text you place in here will be lost. If you need to comment on your tab, please use the "Tab Notes" section located below.