Arpeggio - E Type G Ma7

(/) Slide Up  (\) Slide Down  (h) Hammer On  (p) Pull Off  (b) Bend (r) Release (v) Vibrato

Stave 1:

E|-----------------------2--3--
B|--------------------3--------
G|-----------------4-----------
D|-----------4--5--------------
A|-----2--5--------------------
E|--3--------------------------

Stave 2:

E|--------2--2h3p2---------------------------------
B|-----3------------3------------------------------
G|--4------------------4---------------------------
D|------------------------5--4--4h5----------------
A|-----------------------------------5--2--2h5-----
E|----------------------------------------------3--

Stave 3:

E|---------------------
B|---------------------
G|-------4-------------
D|--4/5-----5--4/5-----
A|---------------------
E|------------------3--

Stave 4:

E|-------------------
B|--3----------------
G|-----4-------------
D|--------5--4h5-----
A|-------------------
E|----------------3--

Stave 5:

E|---------------------
B|---------------------
G|---------------4-----
D|-------4--4h5-----5--
A|--2/5----------------
E|---------------------

Stave 6:

E|----------------
B|----------------
G|----------------
D|-------4--5-----
A|--2/5-----------
E|-------------3--

Stave 7:

E|--2h3p2--------------
B|---------3-----3-----
G|------------4--------
D|---------------------
A|---------------------
E|------------------3--

Stave 8:

E|--
B|--
G|--
D|--
A|--
E|--

http://www.guitartabcreator.com
Guitar Tab Creator is intended to store guitar tab created through the tool. It currently does not support in-line text editing. Any text you place in here will be lost. If you need to comment on your tab, please use the "Tab Notes" section located below.