Arpeggio - E Type G Ma 9

(/) Slide Up  (\) Slide Down  (h) Hammer On  (p) Pull Off  (b) Bend (r) Release (v) Vibrato

Stave 1:

E|--------------------------2--5--3--
B|-----------------------3-----------
G|--------------2-----4--------------
D|-----------4-----5-----------------
A|-----2--5--------------------------
E|--3--------------------------------

Stave 2:

E|--2--3b5r3----------
B|------------3-------
G|---------------2/4--
D|--------------------
A|--------------------
E|--------------------

Stave 3:

E|--------5--2h3--------
B|-----3-------------3--
G|--4-------------4-----
D|----------------------
A|----------------------
E|----------------------

Stave 4:

E|-----------2----------
B|--------3-----3-------
G|-----4-----------2/4--
D|--5-------------------
A|----------------------
E|----------------------

Stave 5:

E|---------------
B|---------------
G|---------------
D|-------4h5-----
A|--2/5----------
E|------------3--

Stave 6:

E|---------------
B|---------------
G|------------4--
D|-------4h5-----
A|--2/5----------
E|---------------

Stave 7:

E|----------------------
B|----------------3-----
G|-----2-----2/4--------
D|--4-----5----------5--
A|----------------------
E|----------------------

Stave 8:

E|--5b7r5p3\2-------------
B|------------------3-----
G|-------------2/4-----4--
D|------------------------
A|------------------------
E|------------------------

http://www.guitartabcreator.com
Guitar Tab Creator is intended to store guitar tab created through the tool. It currently does not support in-line text editing. Any text you place in here will be lost. If you need to comment on your tab, please use the "Tab Notes" section located below.