Ane Brun - Du gråter så store tåra

(/) Slide Up  (\) Slide Down  (h) Hammer On  (p) Pull Off  (b) Bend (r) Release (v) Vibrato


E|--4--------2--4--5--4--2--0----------------------------
B|-----0-----------------------------0-------------0-----
G|--------0--------------------5--------5--5/7--------7--
D|-----------------0--------------0-------------0--------
A|-------------------------------------------------------
E|--0--------------------------5-----------5-7-----------



E|--4--------5--------7-------------------------------------
B|-----0--------0--------0-----0--------0-------------0-----
G|--------0--------0--------0-----5--------5--5/7--------7--
D|-----------------------------------0-------------0--------
A|----------------------------------------------------------
E|--0--------0--------------------5-----------5-7-----------



E|-----------------------------------------------------
B|--2-----2-----2-----4-----5-----5-----5-----5-----7--
G|--0-----0-----0-----0-----0-----0-----0-----0-----0--
D|-----------------------------------------------------
A|--2--2-----2-----2-----------------------------------
E|--------------------4--4-----5-----5-----5-----5--7--



E|-----------------------
B|-----7-----7-----7-----
G|-----0-----0-----0-----
D|-----------------------
A|-----------------------
E|--7-----7-----7-----7--
http://www.guitartabcreator.com
Guitar Tab Creator is intended to store guitar tab created through the tool. It currently does not support in-line text editing. Any text you place in here will be lost. If you need to comment on your tab, please use the "Tab Notes" section located below.