rrrr

(/) Slide Up  (\) Slide Down  (h) Hammer On  (p) Pull Off  (b) Bend (r) Release (v) Vibrato


E|----------9--------------9-------------9--------------9------
B|------10-----10------10-----10-----10-----10------10-----10--
G|--11---------------------------------------------------------
D|-----------------12-------------9-------------12-------------
A|-------------------------------------------------------------
E|-------------------------------------------------------------



E|--9--10--9------9v--v--v--v------------------9--10--9v--v--
B|------------10---------------10--12v--v--12----------------
G|-----------------------------------------------------------
D|-----------------------------------------------------------
A|-----------------------------------------------------------
E|-----------------------------------------------------------



E|---------7-------------7---------
B|-----10-----10-----10-----10-----
G|---------------------------------
D|--9-------------9----------------
A|---------------------------------
E|---------------------------------
http://www.guitartabcreator.com
Guitar Tab Creator is intended to store guitar tab created through the tool. It currently does not support in-line text editing. Any text you place in here will be lost. If you need to comment on your tab, please use the "Tab Notes" section located below.