Living in a world of funk and dicks

(/) Slide Up  (\) Slide Down  (h) Hammer On  (p) Pull Off  (b) Bend (r) Release (v) Vibrato

E|------------
B|--7--9--10--
G|------------
D|------------
A|--5--7--9---
E|------------



E|--------------------
B|--7--9--10--12--14--
G|--------------------
D|--------------------
A|--5--7--9---10--12--
E|--------------------
http://www.guitartabcreator.com
Guitar Tab Creator is intended to store guitar tab created through the tool. It currently does not support in-line text editing. Any text you place in here will be lost. If you need to comment on your tab, please use the "Tab Notes" section located below.