Dicks to the speed

(/) Slide Up  (\) Slide Down  (h) Hammer On  (p) Pull Off  (b) Bend (r) Release (v) Vibrato


E|--------------------------------------------------------------
B|-----------------------------------------------------3-----5--
G|-----7-----7--9--7-----5-----7-----5-----3-----2--------------
D|--------------------------------------------------------------
A|--5-----5-----------3-----3-----3-----1-----0-----1-----3-----
E|--------------------------------------------------------------



E|--5--3--1--3--
B|--6--5--3--5--
G|--7--5--3--5--
D|--7--5--3--5--
A|--5--3--1--3--
E|--------------



E|--------------------------------------------------------------------------
B|--------------------------------------------------------------------------
G|--------------------------------------------------------------------------
D|--------------------------------------------------------------------------
A|-----5--5--5--5--5--5--5-----3--3--3--3--3-----1--1--1--1--1-----1--3--5--
E|--3-----------------------3-----------------3-----------------3-----------
http://www.guitartabcreator.com
Guitar Tab Creator is intended to store guitar tab created through the tool. It currently does not support in-line text editing. Any text you place in here will be lost. If you need to comment on your tab, please use the "Tab Notes" section located below.