Throwdown sanford solo

(/) Slide Up  (\) Slide Down  (h) Hammer On  (p) Pull Off  (b) Bend (r) Release (v) Vibrato


E|---------------------------------------------------------
B|---------------------------------------------------------
G|---------------------------------------------------------
D|------10-----------------------------12\14--15\17\19\21--
A|--12------10--8/7--7--8--7--8--7--8----------------------
E|---------------------------------------------------------



E|----------------------------------------------------------------------------------------------
B|----------------------------------------------------------------------------------------------
G|------21--21--21--21--21--21--21--21--21--21--19--19--19--19--19--19--19--19--17--17--17--17--
D|--21------------------------------------------------------------------------------------------
A|----------------------------------------------------------------------------------------------
E|----------------------------------------------------------------------------------------------



E|----------------------------------------------------------------------------------------
B|----------------------------------------------------------------------------------------
G|--17--17--17--17--17--16--16--16--16--16--16--16--14--14--14--14--14--14----------------
D|--------------------------------------------------------------------------15\17--12h14--
A|----------------------------------------------------------------------------------------
E|----------------------------------------------------------------------------------------



E|--------------------------------------------------------------------------------------------------
B|--------------------------------------------------------------------------------------------------
G|--12--12--12--12--14--14--14--14--16--16--16--16--17--17--17--17--19--19--19--19--21--21--21--21--
D|--------------------------------------------------------------------------------------------------
A|--------------------------------------------------------------------------------------------------
E|--------------------------------------------------------------------------------------------------



E|-----------------------------------------------------------------------------
B|-----------------------------------------------------------------------------
G|--14---------15--17--19--19--19--19--19--19--19--19--21--21--21--21--21--21--
D|------15/17------------------------------------------------------------------
A|-----------------------------------------------------------------------------
E|-----------------------------------------------------------------------------



E|-----------------------------------------
B|-----------------------------------------
G|--21--21--21--21--21b21b21b21b21---------
D|----------------------------------10--0--
A|----------------------------------10--0--
E|----------------------------------10--0--
http://www.guitartabcreator.com
Guitar Tab Creator is intended to store guitar tab created through the tool. It currently does not support in-line text editing. Any text you place in here will be lost. If you need to comment on your tab, please use the "Tab Notes" section located below.