Throwdown sanford part 2

(/) Slide Up  (\) Slide Down  (h) Hammer On  (p) Pull Off  (b) Bend (r) Release (v) Vibrato


E|----------------------------------------------------------------------------------------
B|----------------------------------------------------------------------------------------
G|-----10-9-------------------------10-9-------------------------10-9---------------------
D|----------10-9--------------7----------10-9--------------7----------10-9--------------7-
A|-------------------12p0-8/7---------------------12p0-8/7---------------------12p0-8-7---
E|-0-0-----------0-0------------0-0-----------0-0------------0-0-----------0-0------------



E|-|-----------------|-----------------|-
B|-|-----------------|-----------------|-
G|-|-----------------|-----------------|-
D|-|-----------------|-----------------|-
A|-|-----------------|-----------------|-
E|-|-3-3-3-3-3-3-3-3-|-7-7-7-7-7-7-7-7-|-



E|-
B|-
G|-
D|-
A|-
E|-
http://www.guitartabcreator.com
Guitar Tab Creator is intended to store guitar tab created through the tool. It currently does not support in-line text editing. Any text you place in here will be lost. If you need to comment on your tab, please use the "Tab Notes" section located below.