Sweet home alabama

(/) Slide Up  (\) Slide Down  (h) Hammer On  (p) Pull Off  (b) Bend (r) Release (v) Vibrato

E|-------------------3-----------------------------------3-------------------
B|-----3-------3---------------------------3-------3-------------------------
G|-------2-------0---0-------------2p0-------2-------0---0-2p0-0-4p0-0-5b7r5-
D|-0-0---------------5-----0-2p0-------0-0---------------5-------------------
A|---------3-3---------0h2-------2-------------3-3---------------------------
E|-----------------3-3---------------------------------3-3-------------------



E|-----------------------------
B|-----------------------------
G|-------7-7-----5-5-----------
D|-------7-7-----5-5-----------
A|-7-8-9-----5h7-5-5-0h4-4-----
E|-------------------3-5---5---



E|-----
B|-1-1-
G|-2---
D|-3-2-
A|---3-
E|-----
http://www.guitartabcreator.com
Guitar Tab Creator is intended to store guitar tab created through the tool. It currently does not support in-line text editing. Any text you place in here will be lost. If you need to comment on your tab, please use the "Tab Notes" section located below.