Skyfall

(/) Slide Up  (\) Slide Down  (h) Hammer On  (p) Pull Off  (b) Bend (r) Release (v) Vibrato

E|----1-0---------------------------------------
B|-0------0-----1---1---1---1---1---1---1---1--- Times 3 after A 0
G|-2--------2---2---2---2---2---2---2---2---2---
D|-2------------------3---3---0---0---0---0-----
A|-0----------0---0-----------------------------
E|----------------------------------------------



E|---------------------------------
B|---1---1---1---0---0---0---0-----
G|---2---2---2---2---2---1---1-----
D|---------------------------------
A|-2---2---2---2-------------------
E|-----------------0---0---0---0---



E|--------------------------------------------------
B|--1-----1-----1-----1-----1-----1-----1-----1-----
G|--2-----2-----2-----2-----2-----2-----2-----2----- Times 2
D|--2-----------3-----------4-----------3-----------
A|-----0-----0-----0-----0-----0-----0-----0-----0--
E|--------------------------------------------------
http://www.guitartabcreator.com
Guitar Tab Creator is intended to store guitar tab created through the tool. It currently does not support in-line text editing. Any text you place in here will be lost. If you need to comment on your tab, please use the "Tab Notes" section located below.