Me Gusta Gingerbread Man

(/) Slide Up  (\) Slide Down  (h) Hammer On  (p) Pull Off  (b) Bend (r) Release (v) Vibrato


E|-----7-----7-----7-----3-----3-5-3-0---
B|---5-----5-----5-----3-----3---------3-
G|-7-----7-----7-----5-----5-------------
D|---------------------------------------
A|---------------------------------------
E|---------------------------------------



E|-7-7-5-5-------------------5-5-7-5-----7-7-7-7-10-10-10-10-
B|---------8-5-------5-5-8-8---------8-5---------------------
G|-------------7-7-7-----------------------------------------
D|-----------------------------------------------------------
A|-----------------------------------------------------------
E|-----------------------------------------------------------
http://www.guitartabcreator.com
Guitar Tab Creator is intended to store guitar tab created through the tool. It currently does not support in-line text editing. Any text you place in here will be lost. If you need to comment on your tab, please use the "Tab Notes" section located below.