IbZaugNtxiv

(/) Slide Up  (\) Slide Down  (h) Hammer On  (p) Pull Off  (b) Bend (r) Release (v) Vibrato
E|-----------------------------------------------------------------------13------11--
B|------------------------------------------------------------10--11/13------13------
G|--------3--3--5--3--5/7/10--7/14--12--10--12------------10-------------------------
D|--3--5-------------------------------------------8--10-----------------------------
A|----------------------------------------------8------------------------------------
E|-----------------------------------------------------------------------------------



E|------13------11--13b13--11--13----------10--13--10----------------------------
B|--13------13-------------------------11--------------11--------11-------10b10--
G|---------------------------------10----------------------10\8------8\7---------
D|-------------------------------------------------------------------------------
A|-------------------------------------------------------------------------------
E|-------------------------------------------------------------------------------



E|----------10--15--10--------------------------------------------------------
B|------11--------------11--------11-----------------------11--13b13--11--13--
G|--10----------------------10\8------8\7b7------7--10/12---------------------
D|-------------------------------------------10-------------------------------
A|----------------------------------------------------------------------------
E|----------------------------------------------------------------------------



E|--13b13--11--13------13------13------11------11--------------------------
B|-----------------13------13------11------11------------------------------
G|-------------------------------------------------------------------------
D|-------------------------------------------------------------------------
A|-------------------------------------------------------------------------
E|-------------------------------------------------------------------------
http://www.guitartabcreator.com
Guitar Tab Creator is intended to store guitar tab created through the tool. It currently does not support in-line text editing. Any text you place in here will be lost. If you need to comment on your tab, please use the "Tab Notes" section located below.