Verse 1

(/) Slide Up  (\) Slide Down  (h) Hammer On  (p) Pull Off  (b) Bend (r) Release (v) Vibrato


E|-12v-10v-8-8-8-8-10-10-8v-7v-5-5-5-5-7-7-5v----------------------------------------
B|--------------------------------------------8v-7-8-10-8-7-8-8-7--------------------
G|----------------------------------------------------------------9-9-7----------9-7-
D|----------------------------------------------------------------------10-10-10-----
A|-----------------------------------------------------------------------------------
E|-----------------------------------------------------------------------------------



E|--------------------------
B|-8-8-7--------------------
G|-------9-9-7----------9-7-
D|-------------10-10-10-----
A|--------------------------
E|--------------------------
http://www.guitartabcreator.com
Guitar Tab Creator is intended to store guitar tab created through the tool. It currently does not support in-line text editing. Any text you place in here will be lost. If you need to comment on your tab, please use the "Tab Notes" section located below.