Demo #1

(/) Slide Up  (\) Slide Down  (h) Hammer On  (p) Pull Off  (b) Bend (r) Release (v) Vibrato

E|-----------------------------------------0--------------------------------------------------0-----
B|-----0--------0--------0--------0-----------0-----0-----0--------0--------0--------0--------------
G|--2-----2--------2--------2--------2-----------2-----5-----5--------5--------5--------5-----------
D|--2--------2--------2--------2--------2--------------5--------5--------5--------5--------5--------
A|--0--------------------------------------------------3--------------------------------------------
E|--2--------------------------------------------------0--------------------------------------------



E|--------0-----------------------------------------0-----------------------------------------------
B|--0-----------0--------0--------0--------0-----------0-----0-----0--------0--------0--------0-----
G|-----5-----2-----2--------2--------2--------2-----------2-----5-----5--------5--------5--------5--
D|-----------2--------2--------2--------2--------2--------------5--------5--------5--------5--------
A|-----------0--------------------------------------------------3-----------------------------------
E|-----------2--------------------------------------------------0-----------------------------------



E|-----0--------0-----------------------------------------0-----------------------------------------
B|--------0-----------0--------0--------0--------0-----------0-----0-----0--------0--------0--------
G|-----------5-----2-----2--------2--------2--------2-----------2-----5-----5--------5--------5-----
D|--5--------------2--------2--------2--------2--------2--------------5--------5--------5--------5--
A|-----------------0--------------------------------------------------3-----------------------------
E|-----------------2--------------------------------------------------0-----------------------------



E|-----------0--------0-----------------------------------------0-----------------------------------
B|--0-----------0-----------0--------0--------0--------0-----------0-----0-----0--------0--------0--
G|-----5-----------5-----2-----2--------2--------2--------2-----------2-----5-----5--------5--------
D|--------5--------------2--------2--------2--------2--------2--------------5--------5--------5-----
A|-----------------------0--------------------------------------------------3-----------------------
E|-----------------------2--------------------------------------------------0-----------------------



E|-----------------0---------------------------------------------------------------------------------
B|--------0-----------0------------------------------------------------3--3-----------------3--3-----
G|--5--------5-----------5---------2--2-----------------2--2--2--------0--0-----------------0--0-----
D|-----5--------5-----------5------2--2-----------------2--2--2--------0--0-----------------0--0-----
A|---------------------------------0--0-----------------0--0--0--------0--0-----------------0--0-----
E|---------------------------------------0--0--0--0--0-----------0--0--3--3--0--0--0--0--0--3--3-----



E|--------------------------------------------------------------------------------------------------
B|--3--------3--3-----------------3--3--3--------3--3-----------------3--3--3--------3--3-----------
G|--0--------2--2-----------------2--2--2--------0--0-----------------0--0--0--------2--2-----------
D|--0--------0--0-----------------0--0--0--------0--0-----------------0--0--0--------0--0-----------
A|--0--------------------------------------------0--0-----------------0--0--0-----------------------
E|--3--0--0--------0--0--0--0--0-----------0--0--3--3--0--0--0--0--0--3--3--3--0--0--------0--0--0--



E|-----------------
B|--------3--3--3--
G|--------2--2--2--
D|--------0--0--0--
A|-----------------
E|--0--0-----------
http://www.guitartabcreator.com
Guitar Tab Creator is intended to store guitar tab created through the tool. It currently does not support in-line text editing. Any text you place in here will be lost. If you need to comment on your tab, please use the "Tab Notes" section located below.