dusty road

(/) Slide Up  (\) Slide Down  (h) Hammer On  (p) Pull Off  (b) Bend (r) Release (v) Vibrato


E|-------------------------------------------------
B|--------1--3--1--0--0h1p0-----------5--0--0h1p0--
G|-----2---------------------4--5--7---------------
D|--2----------------------------------------------
A|-------------------------------------------------
E|-------------------------------------------------



E|-------------
B|-------------
G|-----0--0h2--
D|--0-----0----
A|-------------
E|-------------
http://www.guitartabcreator.com
Guitar Tab Creator is intended to store guitar tab created through the tool. It currently does not support in-line text editing. Any text you place in here will be lost. If you need to comment on your tab, please use the "Tab Notes" section located below.