super mario bro 3 overworld (square 1)

(/) Slide Up  (\) Slide Down  (h) Hammer On  (p) Pull Off  (b) Bend (r) Release (v) Vibrato

E|--------8--6-----------
B|-----------------------
G|-----8--------6--7--8--
D|--6--------------------
A|-----------------------
E|-----------------------



E|--------------------------------------------------------------------------------------
B|--9--9--9--9--9----------9--9--9--9--9------9--9--9--9--9----------9--9--9------------
G|-----------------11--10-----------------11-----------------11--10-----------8--8--10--
D|--------------------------------------------------------------------------------------
A|--------------------------------------------------------------------------------------
E|--------------------------------------------------------------------------------------



E|------------------------------------------------------------------------------------
B|------------------------------------------------------------------------------------
G|--11--11--15--11-----10--10--13--13--10-----8--8--11--11--8-----6--6--10--10--6-----
D|------------------8----------------------7-------------------5-------------------3--
A|------------------------------------------------------------------------------------
E|------------------------------------------------------------------------------------



E|------------------------------------------------------------------------------------
B|----------------------------------------------------------------------------13--13--
G|--11--11--15--15--11-----12--12--15--15--12-----8--8--9--9--10--10--11--11----------
D|----------------------8----------------------9--------------------------------------
A|------------------------------------------------------------------------------------
E|------------------------------------------------------------------------------------
http://www.guitartabcreator.com
Guitar Tab Creator is intended to store guitar tab created through the tool. It currently does not support in-line text editing. Any text you place in here will be lost. If you need to comment on your tab, please use the "Tab Notes" section located below.