My Own Sins Solo - Original Song

(/) Slide Up  (\) Slide Down  (h) Hammer On  (p) Pull Off  (b) Bend (r) Release (v) Vibrato


E|----------------------------------------------------------------------------
B|----------------------------------------------------------------------------
G|----------------------------------------------------------------------------
D|---------------------------------------------------9-10-11-10-9-------------
A|----------------7-7-7-8-8-8-9-9-8-8-9-9-9-12-12-12--------------12-9-7------
E|-7-7-7-10-10-10--------------------------------------------------------10-7-



E|------------------------------------
B|------------------------------------
G|------------------------------------
D|------------------------------------
A|-----------7-7-8-8-9-8-9-9-12-12-9v-
E|-7-7-10-10--------------------------
http://www.guitartabcreator.com
Guitar Tab Creator is intended to store guitar tab created through the tool. It currently does not support in-line text editing. Any text you place in here will be lost. If you need to comment on your tab, please use the "Tab Notes" section located below.