Vulnerable

(/) Slide Up  (\) Slide Down  (h) Hammer On  (p) Pull Off  (b) Bend (r) Release (v) Vibrato


E|--------------------------|-----------------------------|------------------------------------------
B|--------------------------|-----------------------------|------------------------------------------
G|--------------------------|-----------------------------|------------------------------------------
D|--------------------------|--------------------------5--|------------------------------------------
A|--------------------2--1--|--------------------5--3--3--|--6v--------------------------------------
E|--0--1--3--0--1--3--------|--0--2--3--0--2--3-----------|--------8v----4v----0v--------------------



E|-------------------------------------------------------------
B|-------------------------------------------------------------
G|-------------------------------------------------------------
D|-----------1-2/4h5p4--h5p4\2--4--5-4-------------------------
A|-------2-3---------------------------7-9-7---9----9-6-2------
E|-0-2-3-------------------------------------8-7--8-7---0------
http://www.guitartabcreator.com
Guitar Tab Creator is intended to store guitar tab created through the tool. It currently does not support in-line text editing. Any text you place in here will be lost. If you need to comment on your tab, please use the "Tab Notes" section located below.