Unseen Terror Inspired

(/) Slide Up  (\) Slide Down  (h) Hammer On  (p) Pull Off  (b) Bend (r) Release (v) Vibrato


E|------------------|---------|-
B|------------------|---------|-
G|------------------|---------|-
D|------------------|---2-----|-
A|-0--------2-------|---2-----|-
E|---1---p0---2---1-|-0-0-----|-



E|---------------------|---
B|---------------------|---
G|-------4/5---------5-|---
D|-------2-3-------4/5-|---
A|-----------------2-3-|---
E|-0-0-0-----0-0-0-----|---
http://www.guitartabcreator.com
Guitar Tab Creator is intended to store guitar tab created through the tool. It currently does not support in-line text editing. Any text you place in here will be lost. If you need to comment on your tab, please use the "Tab Notes" section located below.