Let Us be Merry

(/) Slide Up  (\) Slide Down  (h) Hammer On  (p) Pull Off  (b) Bend (r) Release (v) Vibrato
E|---------------------------|------|---|-------|-
B|---------------------------|------|---|-------|-
G|---------------------------|------|---|-------|-
D|---------------------------|------|---|-5-4---|-
A|-------2--------2--------2-|-3--3-|-3-|-3-2-5-|-
E|-0-0-0-0--0-0-0-0--0-0-0-0-|-1--1-|-1-|-----3-|-



E|---------------------------------------------------------------------------------|-
B|---------------------------------------------------------------------------------|-
G|---------------------------------------------------------------------------------|-
D|----------------------------------------------------------------------5--4-------|-
A|-2---------2-3-3-4-3--2---------2-3--2---------2-3-3/6-3--2---------2-3--2--5--4-|-
E|-0-0-0-0-0-0-1-1/2-1--0-0-0-0-0-0-1--0-0-0-0-0-0-1-1-4-1--0-0-0-0-0-0-------3--2-|-



E|-------------------------------------|---|------|------|-
B|-------------------------------------|---|------|------|-
G|-2-------5-------7/8-7-5-------------|---|------|------|-
D|-0-0-0-0-3-0-0-0-5-6\5-3-0-0-0-0-0-0-|---|-5--3-|------|-
A|-------------------------------------|-3-|-3--1-|-5--3-|-
E|-------------------------------------|-1-|------|-3--1-|-



E|----------|---------------------------------------|-
B|----------|---------------------------------------|-
G|----------|---------------------------------------|-
D|-9--7-7---|-2---4------------------2--4-----------|-
A|-7--7-5-9-|-2---4------------------2--4-----------|-
E|-7--5---6-|-0---2--2-2-2-2-2-2-2-2-0--2-2-2-2-2-2-|-



E|---------|---------------------------------------------|-
B|---------|---------------------------------------------|-
G|---------|---------------------------------------------|-
D|-----7---|---------------------------------------------|-
A|-5---5-7-|-5-------5-------2-5-4-----------------------|-
E|-3-----5-|-3-3-3-3-3-3-3-2-0-3-2-2-2-2-2-2-2-2-2-2-2-2-|-



E|------------|-----5--7--5--7--8--10--8--5--5--7--5-----5--------------------|--15--13--12------------------------------|--
B|------------|--8------------------------------------8-----8--5--8--5-----5--|--------------15--13--12------------------|--
G|------------|---------------------------------------------------------7-----|--------------------------14--12--11--12--|--
D|---------7--|---------------------------------------------------------------|------------------------------------------|--
A|--5------5--|---------------------------------------------------------------|------------------------------------------|--
E|--3---------|---------------------------------------------------------------|------------------------------------------|--
http://www.guitartabcreator.com
Guitar Tab Creator is intended to store guitar tab created through the tool. It currently does not support in-line text editing. Any text you place in here will be lost. If you need to comment on your tab, please use the "Tab Notes" section located below.