Barbelith

(/) Slide Up  (\) Slide Down  (h) Hammer On  (p) Pull Off  (b) Bend (r) Release (v) Vibrato

E|----------0---0--------|---------0---0--------|---------0---0--------|-
B|----------0---0--0-3-1-|---------0---0--0-4-2-|---------0---0--0-4-2-|-
G|-----------------------|----------------------|----------------------|-
D|-------0---------------|-------1--------------|-----0-2--------------|-
A|-----3-----------------|-----4----------------|----------------------|-
E|-0-1-------------------|-0-2------------------|-0-3------------------|-



E|---------3---0---------------------3---0----------|-
B|---------0-------4-1---------------0------3-------|-
G|--------------------------------------------------|-
D|-------0-------------4-----------0----------5-4---|-
A|-----2-----------------3-------2----------------5-|-
E|-0-3-----------------------0-3--------------------|-



E|-------------------------------------------------3------------------3-----|--
B|-------------2--0--------------2--0-----------4------------------4-----4--|--
G|-------------------------------------------2------------------2-----------|--
D|----------0---------------------------------------------------------------|--
A|-------2--------------------2-----------3------------------3--------------|--
E|--3--------------------3-------------4------------------4-----------------|--
http://www.guitartabcreator.com
Guitar Tab Creator is intended to store guitar tab created through the tool. It currently does not support in-line text editing. Any text you place in here will be lost. If you need to comment on your tab, please use the "Tab Notes" section located below.