Anima

(/) Slide Up  (\) Slide Down  (h) Hammer On  (p) Pull Off  (b) Bend (r) Release (v) Vibrato

E|------16------14-----11---------------------------------|------------|----------------
B|-12------11------9-9------------------------------------|-2---2-4--4-|----------------
G|------------------------8-----8-9---8h9p8-6-4---3h4p3-1-|------------|-1---1---0------
D|--------------------------------------------------------|---4--------|----------------
A|--------------------------------------------------------|------------|----------------
E|--------------------------------------------------------|------------|----------------



E|-----------|-
B|-----------|-
G|-0p1---1---|-
D|-----------|-
A|-----------|-
E|-----------|-



E|----------------------------------------------------------------------------|--
B|--------4-----0-----------4-----0--------------4-----0----------------------|--
G|-----------3-----1-----------3-----1--------------3-----1-------4--3--4-----|--
D|-----6-----------------6--------------------6-------------------------------|--
A|--------------------------------------6--7-----------------1-------------4--|--
E|--4-----------------4-------------------------------------------------------|--



E|-----------4-----------------4--------
B|--------------------------------------
G|--3--4--3-----3--4--3--4--3-----3--4--
D|--------------------------------------
A|--------------------------------------
E|--------------------------------------
http://www.guitartabcreator.com
Guitar Tab Creator is intended to store guitar tab created through the tool. It currently does not support in-line text editing. Any text you place in here will be lost. If you need to comment on your tab, please use the "Tab Notes" section located below.