eponyms 2.0

(/) Slide Up  (\) Slide Down  (h) Hammer On  (p) Pull Off  (b) Bend (r) Release (v) Vibrato
E|--------------------------------------------------
B|------11--------------11--------------11------13--
G|--12------12--10--12------12--10--12------12------
D|--------------------------------------------------
A|--------------------------------------------------
E|--------------------------------------------------



E|------------------------------------------------------------------
B|------11--------------11--------------11--------------11------13--
G|--12------12--10--12------12--10--12------12--10--12------12------
D|------------------------------------------------------------------
A|------------------------------------------------------------------
E|------------------------------------------------------------------



E|----------------------------------------------
B|----------------------------------------------
G|--12------10----------------------------------
D|------------------13------12----------10------
A|------11------11------11------11--13------11--
E|----------------------------------------------



E|---------------------------------------------------------------------
B|---------------------------------------------------------------------
G|-------------------------8-------------------------------------------
D|-----10----------10--12-----8---------10------12--10--8--13--15--12--
A|--8------10--11----------------10--8------10-------------------------
E|---------------------------------------------------------------------
http://www.guitartabcreator.com
Guitar Tab Creator is intended to store guitar tab created through the tool. It currently does not support in-line text editing. Any text you place in here will be lost. If you need to comment on your tab, please use the "Tab Notes" section located below.