FF1 Ocean Shrine - Original Solo

(/) Slide Up  (\) Slide Down  (h) Hammer On  (p) Pull Off  (b) Bend (r) Release (v) Vibrato

(W|WW) Whole (H|HH) Half (Q|QQ) Quarter (E|EE) 8th (S|SS) 16th (T|TT) 32nd (X|XX) 64th

Stave 1:
t: EE EE EE EE EE EE EE EE EE EE EE EE EE EE EE EE
E|-------------------------|-------------------------
B|----12----14----12----14-|----12----14----12----14-
G|-13----13----13----13----|-11----11----11----11----
D|-------------------------|-------------------------
A|-------------------------|-------------------------
E|-------------------------|-------------------------

Stave 2:
t: EE EE EE EE EE EE EE EE EE EE EE EE EE EE EE EE
E|-------------------------|-------------------------
B|----12----14----12----14-|----12----14----12----14-
G|-------------------------|-------------------------
D|-14----14----14----14----|-11----11----11----11----
A|-------------------------|-------------------------
E|-------------------------|-------------------------

Stave 3:
t: SS SS SS SS SS SS SS SS SS SS SS SS SS SS SS SS SS SS SS SS SS SS SS SS SS SS SS SS SS SS SS SS
E|----------16----------------16----------------16-|---------------------------------------------------
B|-------16----16----------16----16----------16----|----------------------------------16---------------
G|----16----------16----16----------16----16-------|-18-15----15-------18-15----15-18----18-15----15---
D|-18----------------18----------------18----------|-------16----16----------16----------------16------
A|-------------------------------------------------|----------------18---------------------------------
E|-------------------------------------------------|---------------------------------------------------

Stave 4:
t: SS SS SS SS SS SSSSSS SS SS SS SS SS SS SS SS
E|-------------------------------------------------------------------------------
B|----------16----16h17p16----------------16-------------------------------------
G|-------16----16----------16----------16----16----------------------------------
D|----18----------------------18----18----------18-------------------------------
A|-19----------------------------19----------------------------------------------
E|-------------------------------------------------------------------------------

Stave 5:
t: SS SS SS SS SS SS SS SS SS SS SS SS SS SS SS SS SS SS SS
E|----------14-------14----------------14----------14-------
B|-------14-------14----------14----14----------14----14----
G|----15-------15----------15----15----------15----------15-
D|-16-------------------16----------------16----------------
A|----------------------------------------------------------
E|----------------------------------------------------------

Stave 6:
t: HH QQ QQ HH QQ QQ EE EE EE EE EE EE EE EE EE EE EE EE EE EE EE EE
E|----------|----------|-------------------------|-------------------------
B|----12-14-|----------|-------------------------|----------------14-------
G|-13-------|-15-13-11-|----13-13----13-13----13-|----15-15----15----15----
D|----------|----------|-14-------14-------14----|-16-------16----------16-
A|----------|----------|-------------------------|-------------------------
E|----------|----------|-------------------------|-------------------------

Stave 7:
t: HH QQ QQ WW SS SS SS SS SS SS SS SS SS SS SS SS SS SS SS SS SS SS SS SS
E|----------|----|---------------------------------------------------------------
B|----12-14-|-16-|-17-17-17-16-14-12-12-12-14-16-17-17-17-16-14-12-12-12-14-16---
G|-13-------|----|---------------------------------------------------------------
D|----------|----|---------------------------------------------------------------
A|----------|----|---------------------------------------------------------------
E|----------|----|---------------------------------------------------------------

Stave 8:
t: SS SS SS SS SS SS SS SS SS SS SS SS SS SS SS SS SS SS SS SS SS SS SS SS
E|-14-14-------------14-14-------------14-14-------------14-14-------------
B|-------11-11-14-14-------11-11-14-14-------11-11-14-14-------11-11-14-14-
G|-------------------------------------------------------------------------
D|-------------------------------------------------------------------------
A|-------------------------------------------------------------------------
E|-------------------------------------------------------------------------

Stave 9:
t: WW EE E E E E E E E E E SS SS SS SS SS SS SS SS SS SS SS SS
E|----|------------------|-----------------------------11-12-14-16-------------
B|-12-|-11-9-9-7-5-5-7-7-|-7---------12-12----11-12-14-------------------------
G|-13-|-11-9-9-8-6-6-8-6-|-4-4----13-------13----------------------------------
D|----|------------------|-----14----------------------------------------------
A|----|------------------|-----------------------------------------------------
E|----|------------------|-----------------------------------------------------

Stave 10:
t: SS SS SS SS SSSSSSSSSSSSSSSSSSSSSSSS
E|----11-12-14-16p14h18p14h16p12h18p12h16p11h18p11h|---------------------------------------------
B|-14----------------------------------------------|---------------------------------------------
G|-------------------------------------------------|---------------------------------------------
D|-------------------------------------------------|---------------------------------------------
A|-------------------------------------------------|---------------------------------------------
E|-------------------------------------------------|---------------------------------------------

http://www.guitartabcreator.com
Guitar Tab Creator is intended to store guitar tab created through the tool. It currently does not support in-line text editing. Any text you place in here will be lost. If you need to comment on your tab, please use the "Tab Notes" section located below.