MCR - The Ghost of You (CHORUS)

(/) Slide Up  (\) Slide Down  (h) Hammer On  (p) Pull Off  (b) Bend (r) Release (v) Vibrato

E|---------------------------|--------------------------------|----------------------------
B|---------------------------|--------------------------------|----------------------------
G|-12-14-16-12-12-14-12-11-9-|-11-12-11-9-11-11-12-11-9-11-14-|-11-12-11-9-11-11-12-11-9-9-
D|---------------------------|--------------------------------|----------------------------
A|-10-12-14-10-10-12-10-9--7-|-9--10-9--7-9--9--10-9--7-9--12-|-9--10-9--7-9--9--10-9--7-7-
E|---------------------------|--------------------------------|----------------------------


E|---------------
B|---------------
G|--6--7--9--11--
D|---------------
A|--------7--9---
E|--3--3---------
Guitar Tab Creator is intended to store guitar tab created through the tool. It currently does not support in-line text editing. Any text you place in here will be lost. If you need to comment on your tab, please use the "Tab Notes" section located below.