dada

(/) Slide Up  (\) Slide Down  (h) Hammer On  (p) Pull Off  (b) Bend (r) Release (v) Vibrato

E|-----------------------
B|--5--5--5--0--0--0--0--
G|--4--4--4--4--4--4--4--
D|--4--4--4--4--4--4--4--
A|-----------------------
E|-----------------------



E|--------------------------------
B|--0--0--0--0--0--0--0--0--1--0--
G|--0--0--0--0--0--0--0--4--4-----
D|--0--0--0--0--0--0--0--0--4-----
A|--4--4--4--4--4--4--4--4--0-----
E|--------------------------------
http://www.guitartabcreator.com
Guitar Tab Creator is intended to store guitar tab created through the tool. It currently does not support in-line text editing. Any text you place in here will be lost. If you need to comment on your tab, please use the "Tab Notes" section located below.