Broken

(/) Slide Up  (\) Slide Down  (h) Hammer On  (p) Pull Off  (b) Bend (r) Release (v) Vibrato


E|--2h3--------3--3--------3--------------
B|-------0--------3-----3-----3--------3--
G|----------0--------0--------------0-----
D|--2----------------------------0--------
A|----------------3-----------------------
E|----------------------------------------



E|--0h2--------3p2-----0h2-----------3p2--------
B|-------3----------3-------3-----3-------3-----
G|----------2------------------2-------------2--
D|--0-------------------------------------------
A|----------------------------------------------
E|----------------------------------------------



E|--
B|--
G|--
D|--
A|--
E|--
http://www.guitartabcreator.com
Guitar Tab Creator is intended to store guitar tab created through the tool. It currently does not support in-line text editing. Any text you place in here will be lost. If you need to comment on your tab, please use the "Tab Notes" section located below.