country

(/) Slide Up  (\) Slide Down  (h) Hammer On  (p) Pull Off  (b) Bend (r) Release (v) Vibrato

E|--------------------------------------------------------------------------------------------------------------
B|-----------------5--5--5--------------------------------------------------------------------------------------
G|--------4--6--7-----------6--7--6--------------------------------------------------------------------------9--
D|-----7-----------------------------7--------------7-----7-----7-----7-----7-----------6-----6-----6--7--9-----
A|--------------------------------------7--7--8--9-----9-----9-----9-----9-----9--8--7-----7-----7--------------
E|--5-----------------------------------------------------------------------------------------------------------



E|------------------------------------------------------------------------------------------------------------------------
B|-----------------5--7--5-----------------------------------------------------------------------------------------9--10--
G|--------4--6--7-----------6--7--6-----------------------------------------------------------------------------9---------
D|-----7-----------------------------7--------------7-----7-----7-----7-----7--------------6-----6-----6--7--9------------
A|--------------------------------------7--7--8--9-----9-----9-----9-----9-----9--9--8--7-----7-----7---------------------
E|--5---------------------------------------------------------------------------------------------------------------------
http://www.guitartabcreator.com
Guitar Tab Creator is intended to store guitar tab created through the tool. It currently does not support in-line text editing. Any text you place in here will be lost. If you need to comment on your tab, please use the "Tab Notes" section located below.