Of the Poet - She Could Be You - Bass Tab

(/) Slide Up  (\) Slide Down  (h) Hammer On  (p) Pull Off  (b) Bend (r) Release (v) Vibrato


E|-----------------------------------------------------------------------------------|-
B|-----------------------------------------------------------------------------------|-
G|-----------------------------------------------------------------------9-------9---|-
D|-----10-------10-10-10-----10-------10-10-10-----10-------10-10-10-7-------7-------|-
A|-8--------8------------8--------8------------8--------8----------------------------|-
E|-----------------------------------------------------------------------------------|-



E|----------------------------------------------------------------------------------------
B|----------------------------------------------------------------------------------------
G|----------------------------------------------------------------------------------------
D|----------------------------------------------------------------------------------------
A|-8-8-8-8-8-8-10-10-10-10-10-10-12-12-12-12-12-12-14-14-14-14-14-14-15-15-15-14-14-14-12-
E|----------------------------------------------------------------------------------------



E|---------------------------------------------------------------|-
B|---------------------------------------------------------------|-
G|---------------------------------------------------------------|-
D|---------------------------------------------------------------|-
A|-12------------12-12-12-10-10-10-8-8-8-8-8-8-10-10-10-10-10-10-|-
E|---------------------------------------------------------------|-



E|-------------------------------------------------------|----------------------------------------|-
B|-------------------------------------------------------|----------------------------------------|-
G|-------------------------------------------------------|----------------------------------------|-
D|-------------------------------------------------------|----------------------------------------|-
A|-------------8-8-8-8-8-8-7-7-7-7-7-7-10-10-10-10-10-10-|-8-8-8-8-8-8-7-7-7-7-7-7-5-5-5-5-5-5-10-|-
E|-8-8-8-8-8-8-------------------------------------------|----------------------------------------|-



E|-------------------------------------------------------|-
B|-------------------------------------------------------|-
G|-------------------------------------------------------|-
D|-------------------------------------------------------|-
A|-5-5-5-5-5-5-8-8-8-8-8-8-------------10-10-10-10-10-10-|-
E|-------------------------8-8-8-8-8-8-------------------|-



E|-------------------------------------------------------|-
B|-------------------------------------------------------|-
G|-------------------------------------------------------|-
D|-------------------------------------------------------|-
A|-8-8-8-8-8-8-7-7-7-7-7-7-5-5-5-5-5-5-10-10-10-10-10-10-|-
E|-------------------------------------------------------|-



E|-------------------------------------|-
B|-------------------------------------|-
G|-------------------------------------|-
D|-------------------------------------|-
A|---------5-7-8-8-8-7-7-7-5-5-5-5-5-5-|-
E|-8-8-8-8-----------------------------|-
http://www.guitartabcreator.com
Guitar Tab Creator is intended to store guitar tab created through the tool. It currently does not support in-line text editing. Any text you place in here will be lost. If you need to comment on your tab, please use the "Tab Notes" section located below.