Of the Poet - The Clashing - Bass Tab

(/) Slide Up  (\) Slide Down  (h) Hammer On  (p) Pull Off  (b) Bend (r) Release (v) Vibrato


E|---|---|---------------------------------------------------------------------
B|---|---|---------------------------------------------------------------------
G|---|---|---------------------------------------------------------------------
D|---|---|-----------------------------4-5-7---------------------------7-5-4---
A|-5-|---|---5-5-5-5-5-5-5-5-5-5-5-5-5-----------------------------------------
E|---|-3-|-----------------------------------5-5-5-5-5-5-5-5-5-5-5-5-5---------



E|-----------------------------------------------------------------|-
B|-----------------------------------------------------------------|-
G|-----------------------------------------------------------------|-
D|-----------------------------------------------------------4-5-4-|-
A|---------------------------------5-5-5-5-5-5-5-5-5-5-5-5-5-------|-
E|-3-3-3-3-3-3-3-3-3-3-3-3-3-3-3-3---------------------------------|-



E|---------------------------|-
B|---------------------------|-
G|---------------------------|-
D|---------------------------|-
A|-0-0-0-0-0-0-0-0-0-0-0-0-0-|-
E|---------------------------|-



E|---------------------------------|---------------------------------|-
B|---------------------------------|---------------------------------|-
G|---------------------------------|---------------------------------|-
D|---------------------------------|---------------------------------|-
A|-5-5-5-5-----------------5-5-5-5-|-5-5-5-5---------5-5-5-5-5-5-5-5-|-
E|---------5-5-5-5-3-3-3-3---------|---------5-5-5-5-----------------|-



E|-----------------------------------------------------------------------------|-
B|-----------------------------------------------------------------------------|-
G|-----------------------------------------------------------------------------|-
D|-----------------------------------------------------------------------------|-
A|-5-5-5-5-----------------5-5-5-5---------------------------------------------|-
E|---------5-5-5-5-3-3-3-3---------5-5-5-5-5-5-5-5-3-----------3-3-3-3-5-5-5-5-|-
http://www.guitartabcreator.com
Guitar Tab Creator is intended to store guitar tab created through the tool. It currently does not support in-line text editing. Any text you place in here will be lost. If you need to comment on your tab, please use the "Tab Notes" section located below.