Of the Poet - Carolina - Bass Tab

(/) Slide Up  (\) Slide Down  (h) Hammer On  (p) Pull Off  (b) Bend (r) Release (v) Vibrato

E|-------|-----------------|-------------------------------------------------------------
B|-------|-----------------|-------------------------------------------------------------
G|-------|-----------------|-------------------------------------------------------------
D|-------|-----------------|-------------------------------------------------------------
A|-5-----|-----------------|-5---5---5-7-9-5/10---10---10---10h12-10-9---9---9-12-10-9---
E|-------|-5-5-5-5-5-5-5-5-|-------------------------------------------------------------



E|------------------|-|-|-|-|-------------------|-|-|-|-|-|-
B|------------------|-|-|-|-|-------------------|-|-|-|-|-|-
G|------------------|-|-|-|-|-------------------|-|-|-|-|-|-
D|------------------|-|-|-|-|-------------------|-|-|-|-|-|-
A|-7---7---7-10-9-7-|-|-|-|-|-7---7---7-10-9-12-|-|-|-|-|-|-
E|------------------|-|-|-|-|-------------------|-|-|-|-|-|-



E|--------------------------------------------------------------------------------------------------------|-----------------------------|--
B|--------------------------------------------------------------------------------------------------------|-----------------------------|--
G|--------------------------------------------------------------------------------------------------------|-----------------------------|--
D|--------------------------------------------------------------------------------------------------------|-----------------------------|--
A|--7--7--7--7--7--7--7--7/10--10--10--10--10--10--10--10\5--5--5--5--5--5--5--5--------------------------|--7--7--7--7--7--7--7--7/10--|--
E|--------------------------------------------------------------------------------5--5--5--5--5--5--5--5--|-----------------------------|--
http://www.guitartabcreator.com
Guitar Tab Creator is intended to store guitar tab created through the tool. It currently does not support in-line text editing. Any text you place in here will be lost. If you need to comment on your tab, please use the "Tab Notes" section located below.